ISO-10303-21;
HEADER;
/* Generated by software containing ST-Developer
 * from STEP Tools, Inc. (www.steptools.com) 
 */

FILE_DESCRIPTION(
/* description */ (''),
/* implementation_level */ '2;1');

FILE_NAME(
/* name */ 
'E:\\Users\\Alex\\Documents\\Inventor\\Bauelemente\\Widerstand\\THT\\7.
62\\Widerstand.stp',
/* time_stamp */ '2017-10-22T19:03:39+02:00',
/* author */ ('Alex'),
/* organization */ (''),
/* preprocessor_version */ 'ST-DEVELOPER v16.5',
/* originating_system */ 'Autodesk Inventor 2017',
/* authorisation */ '');

FILE_SCHEMA (('AUTOMOTIVE_DESIGN { 1 0 10303 214 3 1 1 }'));
ENDSEC;

DATA;
#10=MECHANICAL_DESIGN_GEOMETRIC_PRESENTATION_REPRESENTATION('',(#42,#39,
#40,#41,#43,#30,#31,#33,#32,#37,#34,#35,#36,#38),#662);
#11=SHAPE_REPRESENTATION_RELATIONSHIP('SRR','None',#671,#12);
#12=ADVANCED_BREP_SHAPE_REPRESENTATION('',(#13),#661);
#13=MANIFOLD_SOLID_BREP('Volumenk\X\F6rper1',#371);
#14=CONICAL_SURFACE('',#406,1.025,45.);
#15=CONICAL_SURFACE('',#413,0.712680082406882,50.);
#16=CONICAL_SURFACE('',#416,1.025,45.);
#17=CONICAL_SURFACE('',#425,0.712680082406882,50.);
#18=PLANE('',#402);
#19=PLANE('',#435);
#20=TOROIDAL_SURFACE('',#393,0.75,0.5);
#21=TOROIDAL_SURFACE('',#401,0.5,0.25);
#22=TOROIDAL_SURFACE('',#403,1.05,0.1);
#23=TOROIDAL_SURFACE('',#408,1.,0.1);
#24=TOROIDAL_SURFACE('',#411,0.85,0.25);
#25=TOROIDAL_SURFACE('',#414,1.05,0.1);
#26=TOROIDAL_SURFACE('',#419,1.,0.1);
#27=TOROIDAL_SURFACE('',#423,0.85,0.25);
#28=TOROIDAL_SURFACE('',#427,0.75,0.5);
#29=TOROIDAL_SURFACE('',#434,0.5,0.25);
#30=STYLED_ITEM('',(#681),#340);
#31=STYLED_ITEM('',(#682),#342);
#32=STYLED_ITEM('',(#682),#344);
#33=STYLED_ITEM('',(#681),#347);
#34=STYLED_ITEM('',(#683),#349);
#35=STYLED_ITEM('',(#683),#350);
#36=STYLED_ITEM('',(#683),#351);
#37=STYLED_ITEM('',(#683),#352);
#38=STYLED_ITEM('',(#681),#363);
#39=STYLED_ITEM('',(#683),#367);
#40=STYLED_ITEM('',(#683),#368);
#41=STYLED_ITEM('',(#683),#369);
#42=STYLED_ITEM('',(#683),#370);
#43=STYLED_ITEM('',(#680),#13);
#44=FACE_BOUND('',#107,.T.);
#45=FACE_BOUND('',#109,.T.);
#46=FACE_BOUND('',#111,.T.);
#47=FACE_BOUND('',#113,.T.);
#48=FACE_BOUND('',#115,.T.);
#49=FACE_BOUND('',#117,.T.);
#50=FACE_BOUND('',#119,.T.);
#51=FACE_BOUND('',#121,.T.);
#52=FACE_BOUND('',#123,.T.);
#53=FACE_BOUND('',#125,.T.);
#54=FACE_BOUND('',#127,.T.);
#55=FACE_BOUND('',#129,.T.);
#56=FACE_BOUND('',#131,.T.);
#57=FACE_BOUND('',#134,.T.);
#58=FACE_BOUND('',#136,.T.);
#59=FACE_BOUND('',#138,.T.);
#60=FACE_BOUND('',#140,.T.);
#61=FACE_BOUND('',#142,.T.);
#62=FACE_BOUND('',#144,.T.);
#63=FACE_BOUND('',#146,.T.);
#64=FACE_BOUND('',#148,.T.);
#65=FACE_BOUND('',#150,.T.);
#66=FACE_BOUND('',#152,.T.);
#67=FACE_BOUND('',#154,.T.);
#68=FACE_BOUND('',#156,.T.);
#69=FACE_BOUND('',#158,.T.);
#70=FACE_BOUND('',#160,.T.);
#71=FACE_BOUND('',#162,.T.);
#72=FACE_BOUND('',#164,.T.);
#73=FACE_BOUND('',#166,.T.);
#74=FACE_OUTER_BOUND('',#106,.T.);
#75=FACE_OUTER_BOUND('',#108,.T.);
#76=FACE_OUTER_BOUND('',#110,.T.);
#77=FACE_OUTER_BOUND('',#112,.T.);
#78=FACE_OUTER_BOUND('',#114,.T.);
#79=FACE_OUTER_BOUND('',#116,.T.);
#80=FACE_OUTER_BOUND('',#118,.T.);
#81=FACE_OUTER_BOUND('',#120,.T.);
#82=FACE_OUTER_BOUND('',#122,.T.);
#83=FACE_OUTER_BOUND('',#124,.T.);
#84=FACE_OUTER_BOUND('',#126,.T.);
#85=FACE_OUTER_BOUND('',#128,.T.);
#86=FACE_OUTER_BOUND('',#130,.T.);
#87=FACE_OUTER_BOUND('',#132,.T.);
#88=FACE_OUTER_BOUND('',#133,.T.);
#89=FACE_OUTER_BOUND('',#135,.T.);
#90=FACE_OUTER_BOUND('',#137,.T.);
#91=FACE_OUTER_BOUND('',#139,.T.);
#92=FACE_OUTER_BOUND('',#141,.T.);
#93=FACE_OUTER_BOUND('',#143,.T.);
#94=FACE_OUTER_BOUND('',#145,.T.);
#95=FACE_OUTER_BOUND('',#147,.T.);
#96=FACE_OUTER_BOUND('',#149,.T.);
#97=FACE_OUTER_BOUND('',#151,.T.);
#98=FACE_OUTER_BOUND('',#153,.T.);
#99=FACE_OUTER_BOUND('',#155,.T.);
#100=FACE_OUTER_BOUND('',#157,.T.);
#101=FACE_OUTER_BOUND('',#159,.T.);
#102=FACE_OUTER_BOUND('',#161,.T.);
#103=FACE_OUTER_BOUND('',#163,.T.);
#104=FACE_OUTER_BOUND('',#165,.T.);
#105=FACE_OUTER_BOUND('',#167,.T.);
#106=EDGE_LOOP('',(#261));
#107=EDGE_LOOP('',(#262));
#108=EDGE_LOOP('',(#263));
#109=EDGE_LOOP('',(#264));
#110=EDGE_LOOP('',(#265));
#111=EDGE_LOOP('',(#266));
#112=EDGE_LOOP('',(#267));
#113=EDGE_LOOP('',(#268));
#114=EDGE_LOOP('',(#269));
#115=EDGE_LOOP('',(#270));
#116=EDGE_LOOP('',(#271));
#117=EDGE_LOOP('',(#272));
#118=EDGE_LOOP('',(#273));
#119=EDGE_LOOP('',(#274));
#120=EDGE_LOOP('',(#275));
#121=EDGE_LOOP('',(#276));
#122=EDGE_LOOP('',(#277));
#123=EDGE_LOOP('',(#278));
#124=EDGE_LOOP('',(#279));
#125=EDGE_LOOP('',(#280));
#126=EDGE_LOOP('',(#281));
#127=EDGE_LOOP('',(#282));
#128=EDGE_LOOP('',(#283));
#129=EDGE_LOOP('',(#284));
#130=EDGE_LOOP('',(#285));
#131=EDGE_LOOP('',(#286));
#132=EDGE_LOOP('',(#287));
#133=EDGE_LOOP('',(#288));
#134=EDGE_LOOP('',(#289));
#135=EDGE_LOOP('',(#290));
#136=EDGE_LOOP('',(#291));
#137=EDGE_LOOP('',(#292));
#138=EDGE_LOOP('',(#293));
#139=EDGE_LOOP('',(#294));
#140=EDGE_LOOP('',(#295));
#141=EDGE_LOOP('',(#296));
#142=EDGE_LOOP('',(#297));
#143=EDGE_LOOP('',(#298));
#144=EDGE_LOOP('',(#299));
#145=EDGE_LOOP('',(#300));
#146=EDGE_LOOP('',(#301));
#147=EDGE_LOOP('',(#302));
#148=EDGE_LOOP('',(#303));
#149=EDGE_LOOP('',(#304));
#150=EDGE_LOOP('',(#305));
#151=EDGE_LOOP('',(#306));
#152=EDGE_LOOP('',(#307));
#153=EDGE_LOOP('',(#308));
#154=EDGE_LOOP('',(#309));
#155=EDGE_LOOP('',(#310));
#156=EDGE_LOOP('',(#311));
#157=EDGE_LOOP('',(#312));
#158=EDGE_LOOP('',(#313));
#159=EDGE_LOOP('',(#314));
#160=EDGE_LOOP('',(#315));
#161=EDGE_LOOP('',(#316));
#162=EDGE_LOOP('',(#317));
#163=EDGE_LOOP('',(#318));
#164=EDGE_LOOP('',(#319));
#165=EDGE_LOOP('',(#320));
#166=EDGE_LOOP('',(#321));
#167=EDGE_LOOP('',(#322));
#168=CIRCLE('',#374,0.95);
#169=CIRCLE('',#375,0.95);
#170=CIRCLE('',#377,0.95);
#171=CIRCLE('',#379,0.95);
#172=CIRCLE('',#381,0.95);
#173=CIRCLE('',#383,0.95);
#174=CIRCLE('',#385,0.95);
#175=CIRCLE('',#387,0.95);
#176=CIRCLE('',#389,0.95);
#177=CIRCLE('',#391,1.1);
#178=CIRCLE('',#392,1.1);
#179=CIRCLE('',#394,0.25);
#180=CIRCLE('',#395,0.325360164813764);
#181=CIRCLE('',#397,0.25);
#182=CIRCLE('',#399,0.25);
#183=CIRCLE('',#400,0.25);
#184=CIRCLE('',#404,0.95);
#185=CIRCLE('',#405,0.979289321881345);
#186=CIRCLE('',#407,1.07071067811865);
#187=CIRCLE('',#410,1.1);
#188=CIRCLE('',#412,1.01069690242164);
#189=CIRCLE('',#415,0.979289321881345);
#190=CIRCLE('',#417,1.07071067811865);
#191=CIRCLE('',#420,1.1);
#192=CIRCLE('',#422,1.1);
#193=CIRCLE('',#424,1.01069690242164);
#194=CIRCLE('',#426,0.325360164813764);
#195=CIRCLE('',#428,0.25);
#196=CIRCLE('',#430,0.25);
#197=CIRCLE('',#432,0.25);
#198=CIRCLE('',#433,0.25);
#199=VERTEX_POINT('',#566);
#200=VERTEX_POINT('',#568);
#201=VERTEX_POINT('',#571);
#202=VERTEX_POINT('',#574);
#203=VERTEX_POINT('',#577);
#204=VERTEX_POINT('',#580);
#205=VERTEX_POINT('',#583);
#206=VERTEX_POINT('',#586);
#207=VERTEX_POINT('',#589);
#208=VERTEX_POINT('',#592);
#209=VERTEX_POINT('',#594);
#210=VERTEX_POINT('',#597);
#211=VERTEX_POINT('',#599);
#212=VERTEX_POINT('',#602);
#213=VERTEX_POINT('',#605);
#214=VERTEX_POINT('',#607);
#215=VERTEX_POINT('',#612);
#216=VERTEX_POINT('',#614);
#217=VERTEX_POINT('',#617);
#218=VERTEX_POINT('',#621);
#219=VERTEX_POINT('',#624);
#220=VERTEX_POINT('',#628);
#221=VERTEX_POINT('',#631);
#222=VERTEX_POINT('',#635);
#223=VERTEX_POINT('',#638);
#224=VERTEX_POINT('',#641);
#225=VERTEX_POINT('',#644);
#226=VERTEX_POINT('',#647);
#227=VERTEX_POINT('',#650);
#228=VERTEX_POINT('',#653);
#229=VERTEX_POINT('',#655);
#230=EDGE_CURVE('',#199,#199,#168,.T.);
#231=EDGE_CURVE('',#200,#200,#169,.T.);
#232=EDGE_CURVE('',#201,#201,#170,.T.);
#233=EDGE_CURVE('',#202,#202,#171,.T.);
#234=EDGE_CURVE('',#203,#203,#172,.T.);
#235=EDGE_CURVE('',#204,#204,#173,.T.);
#236=EDGE_CURVE('',#205,#205,#174,.T.);
#237=EDGE_CURVE('',#206,#206,#175,.T.);
#238=EDGE_CURVE('',#207,#207,#176,.T.);
#239=EDGE_CURVE('',#208,#208,#177,.T.);
#240=EDGE_CURVE('',#209,#209,#178,.T.);
#241=EDGE_CURVE('',#210,#210,#179,.T.);
#242=EDGE_CURVE('',#211,#211,#180,.T.);
#243=EDGE_CURVE('',#212,#212,#181,.T.);
#244=EDGE_CURVE('',#213,#213,#182,.T.);
#245=EDGE_CURVE('',#214,#214,#183,.T.);
#246=EDGE_CURVE('',#215,#215,#184,.T.);
#247=EDGE_CURVE('',#216,#216,#185,.T.);
#248=EDGE_CURVE('',#217,#217,#186,.T.);
#249=EDGE_CURVE('',#218,#218,#187,.T.);
#250=EDGE_CURVE('',#219,#219,#188,.T.);
#251=EDGE_CURVE('',#220,#220,#189,.T.);
#252=EDGE_CURVE('',#221,#221,#190,.T.);
#253=EDGE_CURVE('',#222,#222,#191,.T.);
#254=EDGE_CURVE('',#223,#223,#192,.T.);
#255=EDGE_CURVE('',#224,#224,#193,.T.);
#256=EDGE_CURVE('',#225,#225,#194,.T.);
#257=EDGE_CURVE('',#226,#226,#195,.T.);
#258=EDGE_CURVE('',#227,#227,#196,.T.);
#259=EDGE_CURVE('',#228,#228,#197,.T.);
#260=EDGE_CURVE('',#229,#229,#198,.T.);
#261=ORIENTED_EDGE('',*,*,#230,.F.);
#262=ORIENTED_EDGE('',*,*,#231,.F.);
#263=ORIENTED_EDGE('',*,*,#231,.T.);
#264=ORIENTED_EDGE('',*,*,#232,.F.);
#265=ORIENTED_EDGE('',*,*,#232,.T.);
#266=ORIENTED_EDGE('',*,*,#233,.F.);
#267=ORIENTED_EDGE('',*,*,#233,.T.);
#268=ORIENTED_EDGE('',*,*,#234,.F.);
#269=ORIENTED_EDGE('',*,*,#234,.T.);
#270=ORIENTED_EDGE('',*,*,#235,.F.);
#271=ORIENTED_EDGE('',*,*,#235,.T.);
#272=ORIENTED_EDGE('',*,*,#236,.F.);
#273=ORIENTED_EDGE('',*,*,#236,.T.);
#274=ORIENTED_EDGE('',*,*,#237,.F.);
#275=ORIENTED_EDGE('',*,*,#237,.T.);
#276=ORIENTED_EDGE('',*,*,#238,.F.);
#277=ORIENTED_EDGE('',*,*,#239,.T.);
#278=ORIENTED_EDGE('',*,*,#240,.F.);
#279=ORIENTED_EDGE('',*,*,#241,.T.);
#280=ORIENTED_EDGE('',*,*,#242,.T.);
#281=ORIENTED_EDGE('',*,*,#243,.T.);
#282=ORIENTED_EDGE('',*,*,#241,.F.);
#283=ORIENTED_EDGE('',*,*,#244,.T.);
#284=ORIENTED_EDGE('',*,*,#245,.F.);
#285=ORIENTED_EDGE('',*,*,#245,.T.);
#286=ORIENTED_EDGE('',*,*,#243,.F.);
#287=ORIENTED_EDGE('',*,*,#244,.F.);
#288=ORIENTED_EDGE('',*,*,#246,.F.);
#289=ORIENTED_EDGE('',*,*,#247,.F.);
#290=ORIENTED_EDGE('',*,*,#248,.T.);
#291=ORIENTED_EDGE('',*,*,#247,.T.);
#292=ORIENTED_EDGE('',*,*,#239,.F.);
#293=ORIENTED_EDGE('',*,*,#248,.F.);
#294=ORIENTED_EDGE('',*,*,#240,.T.);
#295=ORIENTED_EDGE('',*,*,#249,.T.);
#296=ORIENTED_EDGE('',*,*,#249,.F.);
#297=ORIENTED_EDGE('',*,*,#250,.F.);
#298=ORIENTED_EDGE('',*,*,#242,.F.);
#299=ORIENTED_EDGE('',*,*,#250,.T.);
#300=ORIENTED_EDGE('',*,*,#230,.T.);
#301=ORIENTED_EDGE('',*,*,#251,.T.);
#302=ORIENTED_EDGE('',*,*,#252,.F.);
#303=ORIENTED_EDGE('',*,*,#251,.F.);
#304=ORIENTED_EDGE('',*,*,#238,.T.);
#305=ORIENTED_EDGE('',*,*,#246,.T.);
#306=ORIENTED_EDGE('',*,*,#253,.T.);
#307=ORIENTED_EDGE('',*,*,#252,.T.);
#308=ORIENTED_EDGE('',*,*,#254,.F.);
#309=ORIENTED_EDGE('',*,*,#253,.F.);
#310=ORIENTED_EDGE('',*,*,#254,.T.);
#311=ORIENTED_EDGE('',*,*,#255,.T.);
#312=ORIENTED_EDGE('',*,*,#256,.T.);
#313=ORIENTED_EDGE('',*,*,#255,.F.);
#314=ORIENTED_EDGE('',*,*,#257,.T.);
#315=ORIENTED_EDGE('',*,*,#256,.F.);
#316=ORIENTED_EDGE('',*,*,#258,.F.);
#317=ORIENTED_EDGE('',*,*,#257,.F.);
#318=ORIENTED_EDGE('',*,*,#259,.F.);
#319=ORIENTED_EDGE('',*,*,#260,.T.);
#320=ORIENTED_EDGE('',*,*,#260,.F.);
#321=ORIENTED_EDGE('',*,*,#258,.T.);
#322=ORIENTED_EDGE('',*,*,#259,.T.);
#323=CYLINDRICAL_SURFACE('',#373,0.95);
#324=CYLINDRICAL_SURFACE('',#376,0.95);
#325=CYLINDRICAL_SURFACE('',#378,0.95);
#326=CYLINDRICAL_SURFACE('',#380,0.95);
#327=CYLINDRICAL_SURFACE('',#382,0.95);
#328=CYLINDRICAL_SURFACE('',#384,0.95);
#329=CYLINDRICAL_SURFACE('',#386,0.95);
#330=CYLINDRICAL_SURFACE('',#388,0.95);
#331=CYLINDRICAL_SURFACE('',#390,1.1);
#332=CYLINDRICAL_SURFACE('',#396,0.25);
#333=CYLINDRICAL_SURFACE('',#398,0.25);
#334=CYLINDRICAL_SURFACE('',#409,1.1);
#335=CYLINDRICAL_SURFACE('',#418,0.95);
#336=CYLINDRICAL_SURFACE('',#421,1.1);
#337=CYLINDRICAL_SURFACE('',#429,0.25);
#338=CYLINDRICAL_SURFACE('',#431,0.25);
#339=ADVANCED_FACE('',(#74,#44),#323,.T.);
#340=ADVANCED_FACE('',(#75,#45),#324,.T.);
#341=ADVANCED_FACE('',(#76,#46),#325,.T.);
#342=ADVANCED_FACE('',(#77,#47),#326,.T.);
#343=ADVANCED_FACE('',(#78,#48),#327,.T.);
#344=ADVANCED_FACE('',(#79,#49),#328,.T.);
#345=ADVANCED_FACE('',(#80,#50),#329,.T.);
#346=ADVANCED_FACE('',(#81,#51),#330,.T.);
#347=ADVANCED_FACE('',(#82,#52),#331,.T.);
#348=ADVANCED_FACE('',(#83,#53),#20,.F.);
#349=ADVANCED_FACE('',(#84,#54),#332,.T.);
#350=ADVANCED_FACE('',(#85,#55),#333,.T.);
#351=ADVANCED_FACE('',(#86,#56),#21,.T.);
#352=ADVANCED_FACE('',(#87),#18,.F.);
#353=ADVANCED_FACE('',(#88,#57),#22,.F.);
#354=ADVANCED_FACE('',(#89,#58),#14,.T.);
#355=ADVANCED_FACE('',(#90,#59),#23,.T.);
#356=ADVANCED_FACE('',(#91,#60),#334,.T.);
#357=ADVANCED_FACE('',(#92,#61),#24,.T.);
#358=ADVANCED_FACE('',(#93,#62),#15,.T.);
#359=ADVANCED_FACE('',(#94,#63),#25,.F.);
#360=ADVANCED_FACE('',(#95,#64),#16,.T.);
#361=ADVANCED_FACE('',(#96,#65),#335,.T.);
#362=ADVANCED_FACE('',(#97,#66),#26,.T.);
#363=ADVANCED_FACE('',(#98,#67),#336,.T.);
#364=ADVANCED_FACE('',(#99,#68),#27,.T.);
#365=ADVANCED_FACE('',(#100,#69),#17,.T.);
#366=ADVANCED_FACE('',(#101,#70),#28,.F.);
#367=ADVANCED_FACE('',(#102,#71),#337,.T.);
#368=ADVANCED_FACE('',(#103,#72),#338,.T.);
#369=ADVANCED_FACE('',(#104,#73),#29,.T.);
#370=ADVANCED_FACE('',(#105),#19,.T.);
#371=CLOSED_SHELL('',(#339,#340,#341,#342,#343,#344,#345,#346,#347,#348,
#349,#350,#351,#352,#353,#354,#355,#356,#357,#358,#359,#360,#361,#362,#363,
#364,#365,#366,#367,#368,#369,#370));
#372=AXIS2_PLACEMENT_3D('placement',#564,#436,#437);
#373=AXIS2_PLACEMENT_3D('',#565,#438,#439);
#374=AXIS2_PLACEMENT_3D('',#567,#440,#441);
#375=AXIS2_PLACEMENT_3D('',#569,#442,#443);
#376=AXIS2_PLACEMENT_3D('',#570,#444,#445);
#377=AXIS2_PLACEMENT_3D('',#572,#446,#447);
#378=AXIS2_PLACEMENT_3D('',#573,#448,#449);
#379=AXIS2_PLACEMENT_3D('',#575,#450,#451);
#380=AXIS2_PLACEMENT_3D('',#576,#452,#453);
#381=AXIS2_PLACEMENT_3D('',#578,#454,#455);
#382=AXIS2_PLACEMENT_3D('',#579,#456,#457);
#383=AXIS2_PLACEMENT_3D('',#581,#458,#459);
#384=AXIS2_PLACEMENT_3D('',#582,#460,#461);
#385=AXIS2_PLACEMENT_3D('',#584,#462,#463);
#386=AXIS2_PLACEMENT_3D('',#585,#464,#465);
#387=AXIS2_PLACEMENT_3D('',#587,#466,#467);
#388=AXIS2_PLACEMENT_3D('',#588,#468,#469);
#389=AXIS2_PLACEMENT_3D('',#590,#470,#471);
#390=AXIS2_PLACEMENT_3D('',#591,#472,#473);
#391=AXIS2_PLACEMENT_3D('',#593,#474,#475);
#392=AXIS2_PLACEMENT_3D('',#595,#476,#477);
#393=AXIS2_PLACEMENT_3D('',#596,#478,#479);
#394=AXIS2_PLACEMENT_3D('',#598,#480,#481);
#395=AXIS2_PLACEMENT_3D('',#600,#482,#483);
#396=AXIS2_PLACEMENT_3D('',#601,#484,#485);
#397=AXIS2_PLACEMENT_3D('',#603,#486,#487);
#398=AXIS2_PLACEMENT_3D('',#604,#488,#489);
#399=AXIS2_PLACEMENT_3D('',#606,#490,#491);
#400=AXIS2_PLACEMENT_3D('',#608,#492,#493);
#401=AXIS2_PLACEMENT_3D('',#609,#494,#495);
#402=AXIS2_PLACEMENT_3D('',#610,#496,#497);
#403=AXIS2_PLACEMENT_3D('',#611,#498,#499);
#404=AXIS2_PLACEMENT_3D('',#613,#500,#501);
#405=AXIS2_PLACEMENT_3D('',#615,#502,#503);
#406=AXIS2_PLACEMENT_3D('',#616,#504,#505);
#407=AXIS2_PLACEMENT_3D('',#618,#506,#507);
#408=AXIS2_PLACEMENT_3D('',#619,#508,#509);
#409=AXIS2_PLACEMENT_3D('',#620,#510,#511);
#410=AXIS2_PLACEMENT_3D('',#622,#512,#513);
#411=AXIS2_PLACEMENT_3D('',#623,#514,#515);
#412=AXIS2_PLACEMENT_3D('',#625,#516,#517);
#413=AXIS2_PLACEMENT_3D('',#626,#518,#519);
#414=AXIS2_PLACEMENT_3D('',#627,#520,#521);
#415=AXIS2_PLACEMENT_3D('',#629,#522,#523);
#416=AXIS2_PLACEMENT_3D('',#630,#524,#525);
#417=AXIS2_PLACEMENT_3D('',#632,#526,#527);
#418=AXIS2_PLACEMENT_3D('',#633,#528,#529);
#419=AXIS2_PLACEMENT_3D('',#634,#530,#531);
#420=AXIS2_PLACEMENT_3D('',#636,#532,#533);
#421=AXIS2_PLACEMENT_3D('',#637,#534,#535);
#422=AXIS2_PLACEMENT_3D('',#639,#536,#537);
#423=AXIS2_PLACEMENT_3D('',#640,#538,#539);
#424=AXIS2_PLACEMENT_3D('',#642,#540,#541);
#425=AXIS2_PLACEMENT_3D('',#643,#542,#543);
#426=AXIS2_PLACEMENT_3D('',#645,#544,#545);
#427=AXIS2_PLACEMENT_3D('',#646,#546,#547);
#428=AXIS2_PLACEMENT_3D('',#648,#548,#549);
#429=AXIS2_PLACEMENT_3D('',#649,#550,#551);
#430=AXIS2_PLACEMENT_3D('',#651,#552,#553);
#431=AXIS2_PLACEMENT_3D('',#652,#554,#555);
#432=AXIS2_PLACEMENT_3D('',#654,#556,#557);
#433=AXIS2_PLACEMENT_3D('',#656,#558,#559);
#434=AXIS2_PLACEMENT_3D('',#657,#560,#561);
#435=AXIS2_PLACEMENT_3D('',#658,#562,#563);
#436=DIRECTION('axis',(0.,0.,1.));
#437=DIRECTION('refdir',(1.,0.,0.));
#438=DIRECTION('center_axis',(0.,0.,1.));
#439=DIRECTION('ref_axis',(-1.,0.,0.));
#440=DIRECTION('center_axis',(0.,0.,1.));
#441=DIRECTION('ref_axis',(-1.,0.,0.));
#442=DIRECTION('center_axis',(0.,0.,-1.));
#443=DIRECTION('ref_axis',(-1.,0.,0.));
#444=DIRECTION('center_axis',(0.,0.,1.));
#445=DIRECTION('ref_axis',(-1.,0.,0.));
#446=DIRECTION('center_axis',(0.,0.,-1.));
#447=DIRECTION('ref_axis',(-1.,0.,0.));
#448=DIRECTION('center_axis',(0.,0.,1.));
#449=DIRECTION('ref_axis',(-1.,0.,0.));
#450=DIRECTION('center_axis',(0.,0.,-1.));
#451=DIRECTION('ref_axis',(-1.,0.,0.));
#452=DIRECTION('center_axis',(0.,0.,1.));
#453=DIRECTION('ref_axis',(-1.,0.,0.));
#454=DIRECTION('center_axis',(0.,0.,-1.));
#455=DIRECTION('ref_axis',(-1.,0.,0.));
#456=DIRECTION('center_axis',(0.,0.,1.));
#457=DIRECTION('ref_axis',(-1.,0.,0.));
#458=DIRECTION('center_axis',(0.,0.,-1.));
#459=DIRECTION('ref_axis',(-1.,0.,0.));
#460=DIRECTION('center_axis',(0.,0.,1.));
#461=DIRECTION('ref_axis',(-1.,0.,0.));
#462=DIRECTION('center_axis',(0.,0.,-1.));
#463=DIRECTION('ref_axis',(-1.,0.,0.));
#464=DIRECTION('center_axis',(0.,0.,1.));
#465=DIRECTION('ref_axis',(-1.,0.,0.));
#466=DIRECTION('center_axis',(0.,0.,-1.));
#467=DIRECTION('ref_axis',(-1.,0.,0.));
#468=DIRECTION('center_axis',(0.,0.,1.));
#469=DIRECTION('ref_axis',(-1.,0.,0.));
#470=DIRECTION('center_axis',(0.,0.,-1.));
#471=DIRECTION('ref_axis',(-1.,0.,0.));
#472=DIRECTION('center_axis',(0.,0.,1.));
#473=DIRECTION('ref_axis',(-1.,0.,0.));
#474=DIRECTION('center_axis',(0.,0.,-1.));
#475=DIRECTION('ref_axis',(-1.,0.,0.));
#476=DIRECTION('center_axis',(0.,0.,-1.));
#477=DIRECTION('ref_axis',(-1.,0.,0.));
#478=DIRECTION('center_axis',(0.,0.,1.));
#479=DIRECTION('ref_axis',(1.,0.,0.));
#480=DIRECTION('center_axis',(0.,0.,1.));
#481=DIRECTION('ref_axis',(1.,0.,0.));
#482=DIRECTION('center_axis',(0.,0.,-1.));
#483=DIRECTION('ref_axis',(-1.,0.,0.));
#484=DIRECTION('center_axis',(0.,0.,1.));
#485=DIRECTION('ref_axis',(-1.,0.,0.));
#486=DIRECTION('center_axis',(0.,0.,1.));
#487=DIRECTION('ref_axis',(-1.,0.,0.));
#488=DIRECTION('center_axis',(0.,1.,-1.38777878078145E-16));
#489=DIRECTION('ref_axis',(-1.,0.,0.));
#490=DIRECTION('center_axis',(0.,1.,-1.60812264967664E-16));
#491=DIRECTION('ref_axis',(-1.,0.,0.));
#492=DIRECTION('center_axis',(0.,1.,-1.60812264967664E-16));
#493=DIRECTION('ref_axis',(-1.,0.,0.));
#494=DIRECTION('center_axis',(1.,0.,0.));
#495=DIRECTION('ref_axis',(0.,0.,1.));
#496=DIRECTION('center_axis',(0.,1.,-1.60812264967664E-16));
#497=DIRECTION('ref_axis',(1.,0.,0.));
#498=DIRECTION('center_axis',(0.,0.,-1.));
#499=DIRECTION('ref_axis',(1.,0.,0.));
#500=DIRECTION('center_axis',(0.,0.,1.));
#501=DIRECTION('ref_axis',(-1.,0.,0.));
#502=DIRECTION('center_axis',(0.,0.,-1.));
#503=DIRECTION('ref_axis',(-1.,6.12323399573677E-17,0.));
#504=DIRECTION('center_axis',(0.,0.,-1.));
#505=DIRECTION('ref_axis',(-1.,0.,0.));
#506=DIRECTION('center_axis',(0.,0.,1.));
#507=DIRECTION('ref_axis',(-1.,6.12323399573677E-17,0.));
#508=DIRECTION('center_axis',(0.,0.,1.));
#509=DIRECTION('ref_axis',(-1.,0.,0.));
#510=DIRECTION('center_axis',(0.,0.,1.));
#511=DIRECTION('ref_axis',(-1.,0.,0.));
#512=DIRECTION('center_axis',(0.,0.,1.));
#513=DIRECTION('ref_axis',(-1.,0.,0.));
#514=DIRECTION('center_axis',(0.,0.,-1.));
#515=DIRECTION('ref_axis',(1.,0.,0.));
#516=DIRECTION('center_axis',(0.,0.,-1.));
#517=DIRECTION('ref_axis',(-1.,-6.12323399573677E-17,0.));
#518=DIRECTION('center_axis',(0.,0.,1.));
#519=DIRECTION('ref_axis',(-1.,0.,0.));
#520=DIRECTION('center_axis',(0.,0.,1.));
#521=DIRECTION('ref_axis',(1.,0.,0.));
#522=DIRECTION('center_axis',(0.,0.,-1.));
#523=DIRECTION('ref_axis',(-1.,6.12323399573677E-17,0.));
#524=DIRECTION('center_axis',(0.,0.,1.));
#525=DIRECTION('ref_axis',(-1.,0.,0.));
#526=DIRECTION('center_axis',(0.,0.,1.));
#527=DIRECTION('ref_axis',(-1.,6.12323399573677E-17,0.));
#528=DIRECTION('center_axis',(0.,0.,1.));
#529=DIRECTION('ref_axis',(-1.,0.,0.));
#530=DIRECTION('center_axis',(0.,0.,-1.));
#531=DIRECTION('ref_axis',(-1.,0.,0.));
#532=DIRECTION('center_axis',(0.,0.,-1.));
#533=DIRECTION('ref_axis',(-1.,0.,0.));
#534=DIRECTION('center_axis',(0.,0.,1.));
#535=DIRECTION('ref_axis',(-1.,0.,0.));
#536=DIRECTION('center_axis',(0.,0.,1.));
#537=DIRECTION('ref_axis',(-1.,0.,0.));
#538=DIRECTION('center_axis',(0.,0.,1.));
#539=DIRECTION('ref_axis',(1.,0.,0.));
#540=DIRECTION('center_axis',(0.,0.,-1.));
#541=DIRECTION('ref_axis',(-1.,-6.12323399573677E-17,0.));
#542=DIRECTION('center_axis',(0.,0.,-1.));
#543=DIRECTION('ref_axis',(-1.,0.,0.));
#544=DIRECTION('center_axis',(0.,0.,-1.));
#545=DIRECTION('ref_axis',(-1.,0.,0.));
#546=DIRECTION('center_axis',(0.,0.,-1.));
#547=DIRECTION('ref_axis',(1.,0.,0.));
#548=DIRECTION('center_axis',(0.,0.,-1.));
#549=DIRECTION('ref_axis',(1.,0.,0.));
#550=DIRECTION('center_axis',(0.,0.,1.));
#551=DIRECTION('ref_axis',(-1.,0.,0.));
#552=DIRECTION('center_axis',(0.,0.,1.));
#553=DIRECTION('ref_axis',(-1.,0.,0.));
#554=DIRECTION('center_axis',(0.,-1.,-1.38777878078145E-16));
#555=DIRECTION('ref_axis',(-1.,0.,0.));
#556=DIRECTION('center_axis',(0.,-1.,-1.60812264967664E-16));
#557=DIRECTION('ref_axis',(-1.,0.,0.));
#558=DIRECTION('center_axis',(0.,-1.,-1.60812264967664E-16));
#559=DIRECTION('ref_axis',(-1.,0.,0.));
#560=DIRECTION('center_axis',(1.,0.,0.));
#561=DIRECTION('ref_axis',(0.,0.,-1.));
#562=DIRECTION('center_axis',(0.,-1.,-1.60812264967664E-16));
#563=DIRECTION('ref_axis',(1.,0.,0.));
#564=CARTESIAN_POINT('',(0.,0.,0.));
#565=CARTESIAN_POINT('Origin',(0.,0.,0.));
#566=CARTESIAN_POINT('',(0.95,1.16341445918999E-16,1.45857864376269));
#567=CARTESIAN_POINT('Origin',(0.,0.,1.45857864376269));
#568=CARTESIAN_POINT('',(0.95,-1.16341445918999E-16,1.25));
#569=CARTESIAN_POINT('Origin',(0.,0.,1.25));
#570=CARTESIAN_POINT('Origin',(0.,0.,0.));
#571=CARTESIAN_POINT('',(0.95,-1.16341445918999E-16,0.95));
#572=CARTESIAN_POINT('Origin',(0.,0.,0.95));
#573=CARTESIAN_POINT('Origin',(0.,0.,0.));
#574=CARTESIAN_POINT('',(0.95,-1.16341445918999E-16,0.45));
#575=CARTESIAN_POINT('Origin',(0.,0.,0.45));
#576=CARTESIAN_POINT('Origin',(0.,0.,0.));
#577=CARTESIAN_POINT('',(0.95,-1.16341445918999E-16,0.15));
#578=CARTESIAN_POINT('Origin',(0.,0.,0.15));
#579=CARTESIAN_POINT('Origin',(0.,0.,0.));
#580=CARTESIAN_POINT('',(0.95,-1.16341445918999E-16,-0.35));
#581=CARTESIAN_POINT('Origin',(0.,0.,-0.35));
#582=CARTESIAN_POINT('Origin',(0.,0.,0.));
#583=CARTESIAN_POINT('',(0.95,-1.16341445918999E-16,-0.65));
#584=CARTESIAN_POINT('Origin',(0.,0.,-0.65));
#585=CARTESIAN_POINT('Origin',(0.,0.,0.));
#586=CARTESIAN_POINT('',(0.95,-1.16341445918999E-16,-1.15));
#587=CARTESIAN_POINT('Origin',(0.,0.,-1.15));
#588=CARTESIAN_POINT('Origin',(0.,0.,0.));
#589=CARTESIAN_POINT('',(0.95,-1.16341445918999E-16,-1.45));
#590=CARTESIAN_POINT('Origin',(0.,0.,-1.45));
#591=CARTESIAN_POINT('Origin',(0.,0.,-1.5));
#592=CARTESIAN_POINT('',(1.1,-1.34711147906209E-16,-1.69142135623731));
#593=CARTESIAN_POINT('Origin',(0.,0.,-1.69142135623731));
#594=CARTESIAN_POINT('',(1.1,-1.34711147906209E-16,-1.95));
#595=CARTESIAN_POINT('Origin',(0.,0.,-1.95));
#596=CARTESIAN_POINT('Origin',(0.,0.,-3.26397160902833));
#597=CARTESIAN_POINT('',(-0.25,-3.06161699786838E-17,-3.26397160902833));
#598=CARTESIAN_POINT('Origin',(0.,0.,-3.26397160902833));
#599=CARTESIAN_POINT('',(-0.325360164813764,-3.98451284409231E-17,-3.));
#600=CARTESIAN_POINT('Origin',(0.,0.,-3.));
#601=CARTESIAN_POINT('Origin',(0.,0.,-3.));
#602=CARTESIAN_POINT('',(0.25,3.06161699786838E-17,-3.31));
#603=CARTESIAN_POINT('Origin',(0.,0.,-3.31));
#604=CARTESIAN_POINT('Origin',(0.,-0.5,-3.81));
#605=CARTESIAN_POINT('',(0.25,-4.5,-3.81));
#606=CARTESIAN_POINT('Origin',(0.,-4.5,-3.81));
#607=CARTESIAN_POINT('',(0.25,-0.5,-3.81));
#608=CARTESIAN_POINT('Origin',(0.,-0.5,-3.81));
#609=CARTESIAN_POINT('Origin',(0.,-0.5,-3.31));
#610=CARTESIAN_POINT('Origin',(-2.42353909479337E-17,-4.5,-3.81));
#611=CARTESIAN_POINT('Origin',(0.,0.,-1.45857864376269));
#612=CARTESIAN_POINT('',(0.95,1.16341445918999E-16,-1.45857864376269));
#613=CARTESIAN_POINT('Origin',(0.,0.,-1.45857864376269));
#614=CARTESIAN_POINT('',(0.979289321881345,-2.39856706696234E-16,-1.52928932188135));
#615=CARTESIAN_POINT('Origin',(0.,-5.99641766740586E-17,-1.52928932188135));
#616=CARTESIAN_POINT('Origin',(0.,0.,-1.575));
#617=CARTESIAN_POINT('',(1.07071067811865,-1.54074395550979E-32,-1.62071067811866));
#618=CARTESIAN_POINT('Origin',(0.,-6.55621202385451E-17,-1.62071067811866));
#619=CARTESIAN_POINT('Origin',(0.,0.,-1.69142135623731));
#620=CARTESIAN_POINT('Origin',(0.,0.,-1.5));
#621=CARTESIAN_POINT('',(1.1,1.34711147906209E-16,-2.23342308546125));
#622=CARTESIAN_POINT('Origin',(0.,0.,-2.23342308546125));
#623=CARTESIAN_POINT('Origin',(0.,0.,-2.23342308546125));
#624=CARTESIAN_POINT('',(1.01069690242164,0.,-2.424934196241));
#625=CARTESIAN_POINT('Origin',(0.,6.188733632294E-17,-2.424934196241));
#626=CARTESIAN_POINT('Origin',(0.,0.,-2.675));
#627=CARTESIAN_POINT('Origin',(0.,0.,1.45857864376269));
#628=CARTESIAN_POINT('',(0.979289321881345,-2.39856706696234E-16,1.52928932188135));
#629=CARTESIAN_POINT('Origin',(0.,-5.99641766740586E-17,1.52928932188135));
#630=CARTESIAN_POINT('Origin',(0.,0.,1.575));
#631=CARTESIAN_POINT('',(1.07071067811865,-1.54074395550979E-32,1.62071067811866));
#632=CARTESIAN_POINT('Origin',(0.,-6.55621202385451E-17,1.62071067811866));
#633=CARTESIAN_POINT('Origin',(0.,0.,0.));
#634=CARTESIAN_POINT('Origin',(0.,0.,1.69142135623731));
#635=CARTESIAN_POINT('',(1.1,-1.34711147906209E-16,1.69142135623731));
#636=CARTESIAN_POINT('Origin',(0.,0.,1.69142135623731));
#637=CARTESIAN_POINT('Origin',(0.,0.,1.5));
#638=CARTESIAN_POINT('',(1.1,1.34711147906209E-16,2.23342308546125));
#639=CARTESIAN_POINT('Origin',(0.,0.,2.23342308546125));
#640=CARTESIAN_POINT('Origin',(0.,0.,2.23342308546125));
#641=CARTESIAN_POINT('',(1.01069690242164,0.,2.424934196241));
#642=CARTESIAN_POINT('Origin',(0.,6.188733632294E-17,2.424934196241));
#643=CARTESIAN_POINT('Origin',(0.,0.,2.675));
#644=CARTESIAN_POINT('',(0.325360164813764,-3.98451284409231E-17,3.));
#645=CARTESIAN_POINT('Origin',(0.,0.,3.));
#646=CARTESIAN_POINT('Origin',(0.,0.,3.26397160902833));
#647=CARTESIAN_POINT('',(-0.25,3.06161699786838E-17,3.26397160902833));
#648=CARTESIAN_POINT('Origin',(0.,0.,3.26397160902833));
#649=CARTESIAN_POINT('Origin',(0.,0.,3.));
#650=CARTESIAN_POINT('',(0.25,3.06161699786838E-17,3.31));
#651=CARTESIAN_POINT('Origin',(0.,0.,3.31));
#652=CARTESIAN_POINT('Origin',(0.,-0.5,3.81));
#653=CARTESIAN_POINT('',(0.25,-4.5,3.81));
#654=CARTESIAN_POINT('Origin',(0.,-4.5,3.81));
#655=CARTESIAN_POINT('',(0.25,-0.5,3.81));
#656=CARTESIAN_POINT('Origin',(0.,-0.5,3.81));
#657=CARTESIAN_POINT('Origin',(0.,-0.5,3.31));
#658=CARTESIAN_POINT('Origin',(-2.42353909479337E-17,-4.5,3.81));
#659=UNCERTAINTY_MEASURE_WITH_UNIT(LENGTH_MEASURE(0.01),#663,
'DISTANCE_ACCURACY_VALUE',
'Maximum model space distance between geometric entities at asserted c
onnectivities');
#660=UNCERTAINTY_MEASURE_WITH_UNIT(LENGTH_MEASURE(1.E-6),#663,
'DISTANCE_ACCURACY_VALUE',
'Maximum model space distance between geometric entities at asserted c
onnectivities');
#661=(
GEOMETRIC_REPRESENTATION_CONTEXT(3)
GLOBAL_UNCERTAINTY_ASSIGNED_CONTEXT((#659))
GLOBAL_UNIT_ASSIGNED_CONTEXT((#663,#666,#664))
REPRESENTATION_CONTEXT('','3D')
);
#662=(
GEOMETRIC_REPRESENTATION_CONTEXT(3)
GLOBAL_UNCERTAINTY_ASSIGNED_CONTEXT((#660))
GLOBAL_UNIT_ASSIGNED_CONTEXT((#663,#666,#664))
REPRESENTATION_CONTEXT('','3D')
);
#663=(
LENGTH_UNIT()
NAMED_UNIT(*)
SI_UNIT(.MILLI.,.METRE.)
);
#664=(
NAMED_UNIT(*)
SI_UNIT($,.STERADIAN.)
SOLID_ANGLE_UNIT()
);
#665=DIMENSIONAL_EXPONENTS(0.,0.,0.,0.,0.,0.,0.);
#666=(
CONVERSION_BASED_UNIT('degree',#668)
NAMED_UNIT(#665)
PLANE_ANGLE_UNIT()
);
#667=(
NAMED_UNIT(*)
PLANE_ANGLE_UNIT()
SI_UNIT($,.RADIAN.)
);
#668=PLANE_ANGLE_MEASURE_WITH_UNIT(PLANE_ANGLE_MEASURE(0.01745329252),#667);
#669=SHAPE_DEFINITION_REPRESENTATION(#670,#671);
#670=PRODUCT_DEFINITION_SHAPE('',$,#673);
#671=SHAPE_REPRESENTATION('',(#372),#661);
#672=PRODUCT_DEFINITION_CONTEXT('part definition',#677,'design');
#673=PRODUCT_DEFINITION('Widerstand','Widerstand',#674,#672);
#674=PRODUCT_DEFINITION_FORMATION('',$,#679);
#675=PRODUCT_RELATED_PRODUCT_CATEGORY('Widerstand','Widerstand',(#679));
#676=APPLICATION_PROTOCOL_DEFINITION('international standard',
'automotive_design',2009,#677);
#677=APPLICATION_CONTEXT(
'Core Data for Automotive Mechanical Design Process');
#678=PRODUCT_CONTEXT('part definition',#677,'mechanical');
#679=PRODUCT('Widerstand','Widerstand',$,(#678));
#680=PRESENTATION_STYLE_ASSIGNMENT((#684));
#681=PRESENTATION_STYLE_ASSIGNMENT((#685));
#682=PRESENTATION_STYLE_ASSIGNMENT((#686));
#683=PRESENTATION_STYLE_ASSIGNMENT((#687));
#684=SURFACE_STYLE_USAGE(.BOTH.,#688);
#685=SURFACE_STYLE_USAGE(.BOTH.,#689);
#686=SURFACE_STYLE_USAGE(.BOTH.,#690);
#687=SURFACE_STYLE_USAGE(.BOTH.,#691);
#688=SURFACE_SIDE_STYLE('',(#692));
#689=SURFACE_SIDE_STYLE('',(#693));
#690=SURFACE_SIDE_STYLE('',(#694));
#691=SURFACE_SIDE_STYLE('',(#695));
#692=SURFACE_STYLE_FILL_AREA(#696);
#693=SURFACE_STYLE_FILL_AREA(#697);
#694=SURFACE_STYLE_FILL_AREA(#698);
#695=SURFACE_STYLE_FILL_AREA(#699);
#696=FILL_AREA_STYLE('',(#700));
#697=FILL_AREA_STYLE('',(#701));
#698=FILL_AREA_STYLE('',(#702));
#699=FILL_AREA_STYLE('',(#703));
#700=FILL_AREA_STYLE_COLOUR('',#704);
#701=FILL_AREA_STYLE_COLOUR('',#705);
#702=FILL_AREA_STYLE_COLOUR('',#706);
#703=FILL_AREA_STYLE_COLOUR('',#707);
#704=COLOUR_RGB('',0.411764705882353,0.847058823529412,0.835294117647059);
#705=COLOUR_RGB('',0.4,0.,0.);
#706=COLOUR_RGB('',0.,0.0784313725490196,0.0745098039215686);
#707=COLOUR_RGB('',0.501960784313725,0.501960784313725,0.501960784313725);
ENDSEC;
END-ISO-10303-21;
